Discussion For Sep 13

mon

Member
NO WINNERS 7.5 MILLION NEXT WEEK


CAN SOMEONE PLEASE EXPLAIN WHAT IS GOING ON WITH ALL THE HIGH DRAWS :confused:

WE SHOULD BE GETTING VERY LOW DRAWS SOON:uzi:
 
Last edited:

Sheba

Member
high draws

I know all we see are high draws which is fine with me. I like higher numbers anyway.
If I was planning on picking my own numbers I will probally start with 15. Cuts down the odds and when I do I will let you know because this is when you will see the LOW numbers come out. Never fails on my part. I play high they come low... lol

Have a great lottery week! :wavey:

This is what you call a game of "wasting your money". The odd are alot higher than we think. I know they say it is 1 in 20,963,833 but I think it is much higher than that!..

I rather place my money in the Lotto 649 or WIld 5.
 

Sheba

Member
Soon

Just a few more draws and then I may pik my own numbers providing the jackpot does not go by then. But I will jsut stick wth the insta piks until them..:)

Blast :uzi: them Dennis Blast them good!:uzi:


7.5 MILLION $$$$$$$
 

mon

Member
dennis bassboss

DENNIS

I KNOW YOU ARE A PERSON WHO HAS ALL THE CHARTS, SO I AM GOING TO ASK YOU IF YOU WOULD HAVE THE HITS ANS SKIPS HISTORY FOR LOTTO SUPER 7 :)

THANKS IN ADVANCE
 
Re: dennis bassboss

mon said:
DENNIS

I KNOW YOU ARE A PERSON WHO HAS ALL THE CHARTS, SO I AM GOING TO ASK YOU IF YOU WOULD HAVE THE HITS ANS SKIPS HISTORY FOR LOTTO SUPER 7 :)

THANKS IN ADVANCE
Just noticed your post now Mon yes I will post it later as I have to go to work in a hurry...I'm kind of rushing this morning... :agree:
 
Re: Soon

Sheba said:
Just a few more draws and then I may pik my own numbers providing the jackpot does not go by then. But I will jsut stick wth the insta piks until them..:)

Blast :uzi: them Dennis Blast them good!:uzi:


7.5 MILLION $$$$$$$
The big question for this draw is ...Are we gonna see some numbers under 10 for that one ???? I think that we might see more than 2 of these low numbers here...We might even get a low consecutive in that one or a low triple.....The only way to know is by looking at an announcer grid....I'll try to post one if times permit....It should be posted for tomorrow afternoon! :eek2: :eek3:
 

Sheba

Member
They may be just like the Lotto 649 and be very LOW again...


To me I don't care right now as I am just going to play insta piks here until the jackpot grows to at least 10 Million. So maybe next week I will care:lol: :lol: :lol:


Sheba

As always Have a great Lottery Draw!!!
And best of luck to US all....
 
Re: dennis bassboss

mon said:
DENNIS

I KNOW YOU ARE A PERSON WHO HAS ALL THE CHARTS, SO I AM GOING TO ASK YOU IF YOU WOULD HAVE THE HITS ANS SKIPS HISTORY FOR LOTTO SUPER 7 :)

THANKS IN ADVANCE
I will post the last 50 draws....but you want the total history for each number tell me please ?

Last 50 draws
Canada Super Lotto 7/47+ (with bonus)
Number----Times--
------drawn----Not drawn

01-----09--------03
02-----12--------04
03-----05--------08
04-----11--------04
05-----07--------19
06-----08--------07
07-----08--------12
08-----10--------10
09-----06--------17
10-----16--------00
11-----08--------03
12-----07--------00
13-----09--------03
14-----05--------04
15-----13--------00
16-----09--------03
17-----09--------06
18-----07--------02
19-----08--------02
20-----08--------07
21-----09--------01
22-----06--------09
23-----08--------00
24-----11--------00
25-----06--------05
26-----09--------06
27-----12--------01
28-----05--------00
29-----12--------05
30-----12--------10
31-----10--------09
32-----09--------11
33-----05--------06
34-----13--------05
35-----08--------01
36-----04--------02
37-----10--------00
38-----07--------01
39-----09--------09
40-----06--------06
41-----01--------15
42-----06--------02
43-----08--------00
44-----04--------09
45-----13--------01
46-----12--------01
47-----10--------03
 
Last edited:

Maggie

Member
Dennis,
Just printed out your chart, going to :read: it and figure out 2 sets to play weekly with that info. Thanks again :agree2:
 
Top